VERY SORRY, BUT THIS TAB IS SCREWED!!!
Stickin In My Eye
NOFX
TABBED BY: Kirt Pobje.
********************************************************

===================================================================

ATTENTION: ALBINO SAYS: I was told that the begining slow part is on bass. You play the E string open at the same time you play the slow part.
thank you.
====================================================================


Many people beleive because of the film clip that the slow bit at the begining is on the bass. Not so. It's clean guitar. If you listen carefully you can hear an ear on bass every now and then.



Slow intro
G:-----|-----|-----|-----|-----|-----|-----|-----|-----|-----|
D:-----|-----|-----|-----|-----|-----|-----|-----|-----|-----|
A:-----|-----|-----|-----|-----|-----|-----|-----|-----|-----|
E:-----|-----|-0---|-----|-0---|-----|-0---|-----|-0---|-----|

Fast intro
G:---------------|---------------|---------------|-------------|
D:---------------|---------------|---------------|-------------| Play
A:-7-7-7-777-7-7-|-5-5-5-555-5-5-|-3-3-3-333-3-3-|-2-2-2-2-0---| Twice.
E:---------------|---------------|---------------|-----------3-|

Verse
G:-----------------|-----------------|
D:-----------------|-----------------| Play
E:-7-7-7-7-5-5-5-5-|-3-3-3-3-2-2-2-2-| Four times
A:-----------------|-----------------|
when i look 'round.......

Chorus
G:-----------------|-----------------|-----------------|-----------------|
D:-----------------|-----------------|-----------------|-----------------|Play
A:-----------------|-----------------|-----------------|-----------------|Twice
E:-0-0-0-0-0-0-0-0-|-3-3-3-3-3-3-3-3-|-5-5-5-5-5-5-5-5-|-7-7-7-7-7-7-7-7-|
got something stickin'.........

After chorus solo thingy
G:-----------------|
E:-----------------|
G:-----------------|
D:-----------------|play
D:---------5-7-----|
D:-----------------|play
A:-------------3-2-|four
A:-----5-7-----5-7-|
A:-------9-------9-|four
E:-000-3-333-5-----|times
E:-5-7-------------|

E:-77777---77777---|times


Then play Verse four times.
Then play chorus twice.
Then play fast intro twice.
Then fade, with a tad of feedback.
Then the after chorus solo thingy.


TABULATED BY: Kirt any problems let me know.

ENJOY




Make your own free website on Tripod.com